Lyrics for Because I Love You by The Masters Apprentices

Lyrics & Midi Track Information
© HitTrax MIDI Files
www.hittrax.com.au
www.midi.com.au

********************************************
Item Code * HT5253
Song Title * Because I Love You
Performed By * Master's Apprentices
Composer(s) * Ford/Keys
Publisher *
Programmer * Damian Smith
Copyright * © 2006 HitTrax MIDI Files
Unauthorised copying is illegal
********************************************

* Intro

* Verse 1 It's because I love you, not because we're far apart.
It's because I love you and because you're near my heart.
It's because I miss you.
Oh, how long it seems to be.
It's because I miss you, thoughts of you come back to me.

* Chorus Ooh, do what you wanna do, be what you wanna be, yeah
Ooh, do what you wanna do, be what you wanna be, yeah
Ooh, do what you wanna do, be what you wanna be, yeah
Ooh, do what you wanna do, be what you wanna be, yeah

* Break

* Verse 2 Once we walked together from the fields up to the hill.
Promised love forever.
I remember that day still.
It's because I love you, I'll come home to you one day.
It's because I love you, in my thoughts you'll always stay.

* Chorus Ooh, do what you wanna do, be what you wanna be, yeah
Ooh, do what you wanna do, be what you wanna be, yeah
Ooh, do what you wanna do, be what you wanna be, yeah
Ooh, do what you wanna do, be what you wanna be, yeah

* Chorus Ooh, do what you wanna do, be what you wanna be, yeah
Ooh, do what you wanna do, be what you wanna be, yeah
Ooh, do what you wanna do, be what you wanna be, yeah
Ooh, do what you wanna do, be what you wanna be, yeah

* Chorus Ooh, do what you wanna do, be what you wanna be, yeah
Ooh, do what you wanna do, be what you wanna be, yeah
Ooh, do what you wanna do, be what you wanna be, yeah
Ooh, do what you wanna do, be what you wanna be, yeah

********************************************

Guitar Tab

"Because I Love You" - Masters Apprentices

h =3D Hammer on
p =3D Pull off
s/ =3D Slide up
s\ =3D Slide down


INTRO:

1 2 3 4 1 2 3 4 1 2 3 4 1 2 3 4
E|----------------------------------------------------------------|
B|----------------------------------------------------------------|
G|--14--14--14--14--13--13--13--13--11--11--11--11--9---9---9---9-|
D|----------------------------------------------------------------|
A|0---0---0---0---0---0---0---0---0---0---0---0---0---0---0---0---|
E|----------------------------------------------------------------|

1 2 3 4 1 2 3 4 1 2 3 4
E|------------------------------------------------|
B|------------------------------------------------|
G|--9---9---9---9---9---9---9---9---9---9---9---9-|
D|7---------------7---------------7---------------|
A|0---0---0---0---0---0---0---0---0---0---0---0---|
E|------------------------------------------------|

1 2 3 4 1 2 3 4 1 2 3 4 1 2 3 4
E|----------------0-------------------------------0---------------|
B|3-----3-3---2h3---3---2h3---2---3-----3-3---2h3---3---2h3---2p0-|
G|0-----0-0---0-----0---0-----0---0-----0-0---0-----0---0-----0---|
D|0-----0-0---0-------------------0-----0-0---0-------------------|
A|----------------------------------------------------------------|
E|----------------------------------------------------------------|

1 2 3 4 1 2 3 4
E|--------------------------------|
B|--------------------------------|
G|--14--14--14--14--14--14--14--14|
D|--------------------------------|
A|0---0---0---0---0---0---0---0---|
E|--------------------------------|

1 2 3 4 1 2 3 4 1 2 3 4 1 2 3 4
E|----------------0-------------------------------0---------------|
B|3-----3-3---2h3---3---2h3---2---3-----3-3---2h3---3---2h3---2h3-|
G|0-----0-0---0-----0---0-----0---0-----0-0---0-----0---0-----0---|
D|0-----0-0---0-------------------0-----0-0---0-------------------|
A|----------------------------------------------------------------|
E|----------------------------------------------------------------|


MAIN RIFF: Also note the rhythm is now a bar of 4 beats, then a bar of 5)

1 2 3 4
E|--------------------------------|
B|10---s/-12--12-------s/-14------|
G|--------------------------------|
D|7----s/-9---9--------s/-11------|
A|0----s/-0---0--------s/-0-------|
E|--------------------------------|

1 2 3 4 5
E|----------------------------------------|
B|14--------------------------------------|
G|----------------------------------------|
D|11------11------11------11------11------|
A|0---0-------0-------0-------0-------0---|
E|----------------------------------------|

1 2 3 4 =20
E|12---s\-9---9-------s\7-7-------|
B|--------------------------------|
G|9----s\-6---6-------s\4-4-------|
D|0----s\-0---0-------s\0-0-------|
A|--------------------------------|
E|--------------------------------|

1 2 3 4 5
E|----------------------------------------|
B|10--------------------------------------|
G|----------------------------------------|
D|7-------7-------7-------7-------7-------|
A|0---0-------0-------0-------0-------0---|
E|----------------------------------------|


VERSES (Sung over MAIN RIFF)


CHORUS: (Strum normal chords after the lead in shown below.
Timing returns to 4 beats per bar)

4 5 1 2 3 4
E|10-10---9---9---10--10--|
B|10-10---10--10--10--10--|
G|9--9----9---9---9---9---|

A |
|- Repeat x 4
Bm D A Asus4 |


REPEAT INTRO & MAIN RIFF
VERSES (Sung over MAIN RIFF)
REPEAT CHORUS to fade.

********************************************

Time * 5:06
Length * 113 bars
Tempo * 72 BPM
Key * A major

Ch 1 * Steel-String Guitar (Left)
Ch 2 * Fingered Bass
Ch 3 * Steel-String Guitar (Right)
Ch 4 * Vocal Guide
Ch 5 * Overdrive Guitar (Left)
Ch 6 * Overdrive Guitar (Right)
Ch 7 * Piano 1
Ch 10 * Drums